Go Back   Old Project Avalon Forum (ARCHIVE) > Project Avalon Forum > Project Avalon > Project Avalon General Discussion

Notices

Project Avalon General Discussion Finding safe places, information and resources for building communities, site suggestions.

Reply
 
Thread Tools Display Modes
Old 11-04-2009, 08:15 AM   #2751
Luminari
Avalon Senior Member
 
Join Date: Sep 2008
Location: Australia
Posts: 2,570
Wink Re: _AVALON LOUNGE_ Open 24 hours


Last edited by Luminari; 03-08-2010 at 12:07 PM.
Luminari is offline   Reply With Quote
Old 11-04-2009, 08:18 AM   #2752
BROOK
Avalon Senior Member
 
Join Date: Oct 2008
Posts: 3,117
Default Re: _AVALON LOUNGE_ Open 24 hours

?
BROOK is offline   Reply With Quote
Old 11-04-2009, 08:19 AM   #2753
P4BL0
Banned
 
P4BL0's Avatar
 
Join Date: Sep 2008
Posts: 399
Default Re: _AVALON LOUNGE_ Open 24 hours

.

Last edited by Karen; 11-14-2009 at 11:10 PM.
P4BL0 is offline   Reply With Quote
Old 11-04-2009, 08:22 AM   #2754
BROOK
Avalon Senior Member
 
Join Date: Oct 2008
Posts: 3,117
Default Re: _AVALON LOUNGE_ Open 24 hours

BROOK is offline   Reply With Quote
Old 11-04-2009, 08:23 AM   #2755
Luminari
Avalon Senior Member
 
Join Date: Sep 2008
Location: Australia
Posts: 2,570
Talking Re: _AVALON LOUNGE_ Open 24 hours



That is just wrong Pab...

Luminari is offline   Reply With Quote
Old 11-04-2009, 08:24 AM   #2756
P4BL0
Banned
 
P4BL0's Avatar
 
Join Date: Sep 2008
Posts: 399
Red face Re: _AVALON LOUNGE_ Open 24 hours

.

Last edited by Karen; 11-14-2009 at 11:20 PM.
P4BL0 is offline   Reply With Quote
Old 11-04-2009, 08:25 AM   #2757
P4BL0
Banned
 
P4BL0's Avatar
 
Join Date: Sep 2008
Posts: 399
Red face Re: _AVALON LOUNGE_ Open 24 hours

.

Last edited by Karen; 11-14-2009 at 11:21 PM.
P4BL0 is offline   Reply With Quote
Old 11-04-2009, 08:30 AM   #2758
Luminari
Avalon Senior Member
 
Join Date: Sep 2008
Location: Australia
Posts: 2,570
Cool Re: _AVALON LOUNGE_ Open 24 hours

Crazy Train Solo;

The tapping in this section is two very fast taps that almost sound as though they were
only one tap, when first learning this solo i recommend only tapping once each time.

e -T--T----p------T--T----p------T--T----p------T--T----p-----
B 14-14--10-7----14-14--10-7----14-14--10-7----14-14--10-7----
G ------------------------------------------------------------
D ------------------------------------------------------------
A ------------------------------------------------------------
E ------------------------------------------------------------

e -T--T----p------T--T----p------T--T----p------T--T----p-----
B 15-15--10-7----15-15--10-7----15-15--10-7----15-15--10-7----
G ------------------------------------------------------------
D ------------------------------------------------------------
A ------------------------------------------------------------
E ------------------------------------------------------------

Here in this next bit, you could continue hammering on and pulling off the 10 and 12
and slide your hand in-motion to the 9 and 11, or use your tremolo (sissy stick) to
get the same sound. Your call.

e -h--p--h--p--h--p--h--p-h--p-h--p--h--p--h----------------17-16-14-(14)-(14)-16-17-17/19-
B 10-12-10-12-10-12-10-12-9-11-9-11-10-12-10-12------10----------------17^--17^-------------
G ------------------------------------------------9^--9------------------------------------
D -----------------------------------------------------------------------------------------
A -----------------------------------------------------------------------------------------
E -----------------------------------------------------------------------------------------

The big secret to play this line right is to practice it until you
and your fingers know it right, then try to match the speed.

e 16--17--16------16--------------------------------------------
B ------------19----19--17--16-------------------17-------------
G ------------------------------18--16--14--16^------16^--14----
D --------------------------------------------------------------
A --------------------------------------------------------------
E --------------------------------------------------------------


The "R" is for your tapping finger to pull-off the note as your left hand
may be used to doing, only this is done with your right hand tapping finger.
In the following lines Randy made his sound by tapping the same fret between
consecutive hammer-ons and pull-offs.

TR h p TR h p TR h p TR h p
e 17-14-17-14--17-14-17-14--17-14-17-14--17-14-17-14----
B ------------------------------------------------------
G ------------------------------------------------------
D ------------------------------------------------------
A ------------------------------------------------------
E ------------------------------------------------------

TR h p TR h p TR h p TR h p TR h p
e 17-14-17-14--17-14-17-14--17-14-17-14--17-14-17-14----19-14-17-14-
B ------------------------------------------------------------------
G ------------------------------------------------------------------
D ------------------------------------------------------------------
A ------------------------------------------------------------------
E ------------------------------------------------------------------

TR h p TR h p TR h p TR h p
e 21-17-21-17--21-17-21-17--21-17-21-17--21-17-21-17----
B ------------------------------------------------------
G ------------------------------------------------------
D ------------------------------------------------------
A ------------------------------------------------------
E ------------------------------------------------------

TR h p TR h p TR h p TR h p TR h p
e 21-17-21-17--21-17-21-17--21-17-21-17--21-17-21-17----21-16-19-16-
B ------------------------------------------------------------------
G ------------------------------------------------------------------
D ------------------------------------------------------------------
A ------------------------------------------------------------------
E ------------------------------------------------------------------

TR h p TR h p TR h p TR h p
e 19-16-19-16--19-16-19-16--19-16-19-16--19-16-19-16----
B ------------------------------------------------------
G ------------------------------------------------------
D ------------------------------------------------------
A ------------------------------------------------------
E ------------------------------------------------------

TR h p TR h p TR h p TR h p
e 19-16-19-16--19-16-19-16--19-16-19-16--19-16-19-16------17---
B ------------------------------------------------------17^-17-
G -------------------------------------------------------------
D -------------------------------------------------------------
A -------------------------------------------------------------
E -------------------------------------------------------------

e -------------------------------------------------------------------
B -------------------------------------------------------h-----------
G 14--13-11---11----p-------11----p-------11----p------11-13~--13/16-
D ----------------14-11---------14-11---------14-11------------------
A ----------------------14------------14------------14---------------
E -------------------------------------------------------------------


e -----------------------------------------19^-19^--19~---
B --------------------------h-------17-19-----------------
G -------------------h----14-16/18------------------------
D ---------h-------14-16----------------------------------
A --h----12-14/16-----------------------------------------
E 12-14---------------------------------------------------

End Solo

http://www.ultimate-guitar.com/tabs/...n_ver2_tab.htm

Luminari is offline   Reply With Quote
Old 11-04-2009, 08:32 AM   #2759
Luminari
Avalon Senior Member
 
Join Date: Sep 2008
Location: Australia
Posts: 2,570
Default Re: _AVALON LOUNGE_ Open 24 hours

Quote:
Originally Posted by P4BL0 View Post
Hhhooo That Wicked game song.. it's awesome!
Love that model.. What's her name..?
Helena... Cristensen

Luminari is offline   Reply With Quote
Old 11-04-2009, 08:37 AM   #2760
P4BL0
Banned
 
P4BL0's Avatar
 
Join Date: Sep 2008
Posts: 399
Wink Re: _AVALON LOUNGE_ Open 24 hours

.

Last edited by Karen; 11-14-2009 at 11:22 PM.
P4BL0 is offline   Reply With Quote
Old 11-04-2009, 08:38 AM   #2761
BROOK
Avalon Senior Member
 
Join Date: Oct 2008
Posts: 3,117
Default Re: _AVALON LOUNGE_ Open 24 hours

BROOK is offline   Reply With Quote
Old 11-04-2009, 08:41 AM   #2762
P4BL0
Banned
 
P4BL0's Avatar
 
Join Date: Sep 2008
Posts: 399
Red face Re: _AVALON LOUNGE_ Open 24 hours

,

Last edited by Karen; 11-14-2009 at 11:22 PM.
P4BL0 is offline   Reply With Quote
Old 11-04-2009, 08:53 AM   #2763
P4BL0
Banned
 
P4BL0's Avatar
 
Join Date: Sep 2008
Posts: 399
Red face Re: _AVALON LOUNGE_ Open 24 hours

.

Last edited by Karen; 11-14-2009 at 11:22 PM.
P4BL0 is offline   Reply With Quote
Old 11-04-2009, 08:55 AM   #2764
P4BL0
Banned
 
P4BL0's Avatar
 
Join Date: Sep 2008
Posts: 399
Talking Re: _AVALON LOUNGE_ Open 24 hours

.

Last edited by Karen; 11-14-2009 at 11:22 PM.
P4BL0 is offline   Reply With Quote
Old 11-04-2009, 08:56 AM   #2765
Luminari
Avalon Senior Member
 
Join Date: Sep 2008
Location: Australia
Posts: 2,570
Wink Re: _AVALON LOUNGE_ Open 24 hours

Gorgeous Pab.. I wonder what she looks like now though?

Seen megadeth 2X

Tornado Of Souls is my fav, how did you know??
Luminari is offline   Reply With Quote
Old 11-04-2009, 09:04 AM   #2766
P4BL0
Banned
 
P4BL0's Avatar
 
Join Date: Sep 2008
Posts: 399
Red face Re: _AVALON LOUNGE_ Open 24 hours

.

Last edited by Karen; 11-14-2009 at 11:23 PM.
P4BL0 is offline   Reply With Quote
Old 11-04-2009, 09:11 AM   #2767
P4BL0
Banned
 
P4BL0's Avatar
 
Join Date: Sep 2008
Posts: 399
Red face Re: _AVALON LOUNGE_ Open 24 hours

.

Last edited by Karen; 11-14-2009 at 11:23 PM.
P4BL0 is offline   Reply With Quote
Old 11-04-2009, 09:58 AM   #2768
morguana
Project Avalon Moderator
 
Join Date: Jul 2009
Location: sussex, uk
Posts: 1,137
Default Re: _AVALON LOUNGE_ Open 24 hours

YouTube - Nightwish - 05. Phantom Of The Opera(End of An Era 2005)(a symphonic power metal band)
ok folks this one is for you all, hope you love it as much as i do
bou x
__________________
better than a thousand hollow words is one word that brings peace

the way is not in the sky, the way is in the heart

forum guidlines

Avalon Chat
morguana is offline   Reply With Quote
Old 11-04-2009, 10:56 AM   #2769
P4BL0
Banned
 
P4BL0's Avatar
 
Join Date: Sep 2008
Posts: 399
Red face Re: _AVALON LOUNGE_ Open 24 hours

.

Last edited by Karen; 11-14-2009 at 11:23 PM.
P4BL0 is offline   Reply With Quote
Old 11-04-2009, 01:10 PM   #2770
P4BL0
Banned
 
P4BL0's Avatar
 
Join Date: Sep 2008
Posts: 399
Talking Re: _AVALON LOUNGE_ Open 24 hours

.

Last edited by Karen; 11-14-2009 at 11:23 PM.
P4BL0 is offline   Reply With Quote
Old 11-04-2009, 01:20 PM   #2771
P4BL0
Banned
 
P4BL0's Avatar
 
Join Date: Sep 2008
Posts: 399
Talking Re: _AVALON LOUNGE_ Open 24 hours

.

Last edited by Karen; 11-14-2009 at 11:23 PM.
P4BL0 is offline   Reply With Quote
Old 11-04-2009, 01:21 PM   #2772
Luminari
Avalon Senior Member
 
Join Date: Sep 2008
Location: Australia
Posts: 2,570
Post Re: _AVALON LOUNGE_ Open 24 hours

$

Last edited by Luminari; 11-04-2009 at 01:33 PM.
Luminari is offline   Reply With Quote
Old 11-04-2009, 01:30 PM   #2773
Luminari
Avalon Senior Member
 
Join Date: Sep 2008
Location: Australia
Posts: 2,570
Default Re: _AVALON LOUNGE_ Open 24 hours







Luminari is offline   Reply With Quote
Old 11-04-2009, 01:33 PM   #2774
P4BL0
Banned
 
P4BL0's Avatar
 
Join Date: Sep 2008
Posts: 399
Talking Re: _AVALON LOUNGE_ Open 24 hours

.

Last edited by Karen; 11-14-2009 at 11:24 PM.
P4BL0 is offline   Reply With Quote
Old 11-04-2009, 01:39 PM   #2775
Luminari
Avalon Senior Member
 
Join Date: Sep 2008
Location: Australia
Posts: 2,570
Cool Re: _AVALON LOUNGE_ Open 24 hours

Did you see what the 3D image was?




Last edited by Luminari; 11-04-2009 at 01:44 PM.
Luminari is offline   Reply With Quote
Reply

Thread Tools
Display Modes

Posting Rules
You may not post new threads
You may not post replies
You may not post attachments
You may not edit your posts

BB code is On
Smilies are On
[IMG] code is On
HTML code is Off

Forum Jump


All times are GMT. The time now is 05:54 AM.


Powered by vBulletin® Version 3.8.4
Copyright ©2000 - 2019, Jelsoft Enterprises Ltd.
Project Avalon